Close
Faqja 1 prej 11 123 ... FunditFundit
Duke shfaqur rezultatin 1 deri 20 prej 215
  1. #1
    In Flames Maska e dimegeni
    Anėtarėsuar
    23-04-2002
    Vendndodhja
    Göteborg
    Postime
    371
    Faleminderit
    0
    0 falenderime nė 0 postime

    elita5(GUITAR-TAB)

    Keto jane pjese nga ky grup per ti rene me kitare.Kush ka verejtje ose do te diskutoj,hapuni.

    E URREJ SHIUN
    normal tunning

    acoustic part
    ----------8--7-----5-|
    ----0----------------|
    ---2-----------------|
    --2-------0--0-----0-|
    ---------------------|
    ---------------------|


    ----------8--7-----5-|--------------
    ----0----------------|--------------
    ---2-----------------|--------------
    --2-------0--0-----0-|-----0h2p0----
    ---------------------|--------------
    ---------------------|--------------

    ------------------------------|
    ------------------------------|
    --5-7-------------------------|improvizo
    -----5-7-5--------------------|pak
    ----------5-7-5-4-5-7---------|
    ------------------------------|
    tani solo e fillimit
    ---------------------------------------------|
    ----12full-12r--10--12full--12r--10half-10r~~|
    -9-------------------------------------------|
    ---------------------------------------------|
    ---------------------------------------------|
    ---------------------------------------------|


    ----------------------------------------------|
    ----12full-12r-10-12full-12r-10half-10r~~10/8~|
    x-9-------------------------------------------|
    ----------------------------------------------|
    ----------------------------------------------|
    ----------------------------------------------|

    ------------|
    ------------|
    ---------9--|
    ---x-9-10---|
    ------------|
    ------------|

    p.s.une po nxjerr pjeset qe me pelqejne te tjerat kush do le ti shtoje
    Ndryshuar pėr herė tė fundit nga dimegeni : 06-08-2002 mė 07:52
    Discover me like emptiness.......

  2. #2
    In Flames Maska e dimegeni
    Anėtarėsuar
    23-04-2002
    Vendndodhja
    Göteborg
    Postime
    371
    Faleminderit
    0
    0 falenderime nė 0 postime

    AL KAPONE

    Ti s'mund ta pushtosh
    as vete zemren time
    si konkuistadori ameriken latine,
    ta kam vjedh zemren une ty me revole
    pasi shpesh me thua
    se jam prej TIRONE


    AL KAPONE !
    kjo kenge eshte goddamn electric

    --------------------------------|--------------------------------|
    -86898--4--6---86898--6-|4-4--64686----------64686|
    -----------------------------5-|5--------------5-5h7----------|
    --------------------------------|--------------------------------|
    --------------------------------|--------------------------------|
    --------------------------------|--------------------------------|


    -----|---------------------------|
    -4--6|-86898--4-6-86898--|
    -5--5|--------------------------|
    -----|---------------------------|
    -----|---------------------------|
    -----|---------------------------|
    | |
    |---------------------|
    |---------------------|guitar
    |---------------------|two
    |-x-x-x--x-x-x--x-x-x-|distortion
    |-x-x-x--x-x-x--x-x-x-|
    |---------------------|

    ------------------------------------|-------------|
    -6--4-4--64686---------64686|-6--4-4--1-|
    -5--5--------------5-5h7--------|-5--5-5--0-|
    ------------------------------------|-------------|
    ------------------------------------|-------------|
    ------------------------------------|-------------|
    |
    --------------------------|
    --------------------------|
    --------------------------|
    --4-----------------------|
    --2----x-x-x--x-x-x--x-x-x|
    -------x-x-x--x-x-x--x-x-x|

    p.s.solo eshte shume e bukur po me vone dhe po e kapa dot
    Ndryshuar pėr herė tė fundit nga dimegeni : 10-06-2002 mė 14:04
    Discover me like emptiness.......

  3. #3
    In Flames Maska e dimegeni
    Anėtarėsuar
    23-04-2002
    Vendndodhja
    Göteborg
    Postime
    371
    Faleminderit
    0
    0 falenderime nė 0 postime

    AL KAPONE(solo)

    fillon 3:08 dhe mbaron 3:18
    pjesen tjeter me vone ose never

    ---15half--13h15halfbend------------------------------------|-
    ---------------------------------16--15--13----16half-18~~-|-
    --------------------------------------------------------------------|
    --------------------------------------------------------------------|
    --------------------------------------------------------------------|
    --------------------------------------------------------------------|

    dy kitare me duket me mire
    -------------------------------|---------------------------------------|
    ----20--16-----15-----------|---16h20-------15-----------------|
    ----------------------17--20-|------------19-------17--20--------|
    -------------------------------|---------------------------------------|
    -------------------------------|---------------------------------------|
    -------------------------------|---------------------------------------|
    | | |
    -------------------------------|---------------------------------------|
    -------------------------------|---------------------------------------|
    ----12--8-------7-----------|------8h12--------7------------------|
    ----------------------10--13|--------------12------10--13--------|
    -------------------------------|---------------------------------------|
    -------------------------------|---------------------------------------|


    -------------------------------|----------------------------------------|
    -----20--16-----------------|---20p16p15---20p16p15p--------|
    ------------------15---------|------------------------------------------|
    ----------------------17--20|------------------------------------------|
    -------------------------------|-----------------------------------------|
    ------------------------------|------------------------------------------|
    Discover me like emptiness.......

  4. #4
    In Flames Maska e dimegeni
    Anėtarėsuar
    23-04-2002
    Vendndodhja
    Göteborg
    Postime
    371
    Faleminderit
    0
    0 falenderime nė 0 postime

    Dashuria e pare

    hey,you elita5 fans let's rock the f££king house

    Dashuria e pare

    ------------------------------------------|
    ------------------------------------------|
    ---12--11--12--14--12--11--12-----|
    ---------------------------------------14|
    ------------------------------------------|
    ------------------------------------------|


    ------------------------------------------|-------------------|
    ------------------------------------------|-------------------|
    ---12--11--12--14--12--11--12-----|-----12--14-----|
    ---------------------------------------14|-------------------|
    ------------------------------------------|-------------------|
    ------------------------------------------|-------------------|

    ------------------------------------------|----------------------|
    ------------------------------------------|-------------15--17-|
    ---12--11--12--14--12--11--12-----|-12----14-----------|
    ---------------------------------------14|-----------------------|
    ------------------------------------------|-----------------------|
    ------------------------------------------|-----------------------|

    pjesa tjeter eshte dicka e tille

    -----------------------------------------|---------------
    -----------------------------------------|---------------
    -----------------------------------------|---------------
    ----2-2-2-2-dhe ndryshon--4-4-4-|----dhe keshtu me radhe
    ----0-0-0-0---------------------2-2-2|--------------------------
    -----------------------------------------|---------------
    Discover me like emptiness.......

  5. #5
    be yourself by yourself Maska e denku
    Anėtarėsuar
    23-04-2002
    Vendndodhja
    in the casket garden
    Postime
    362
    Faleminderit
    0
    0 falenderime nė 0 postime
    U pa puna unė po hedh notat e baterisė,qė nuk e mesova kurrė.
    Nuk mund te qortohem,sepse dhe vete njeriu model ka skadencen e tij....!!!!!!!!

  6. #6
    In Flames Maska e dimegeni
    Anėtarėsuar
    23-04-2002
    Vendndodhja
    Göteborg
    Postime
    371
    Faleminderit
    0
    0 falenderime nė 0 postime

    Edhe ti

    kam 4 vjet qe te lutem mesoe baterine po nuk me degjon qe jo ,e ke mendjen tek piktura dhe te vizatosh kembet e Lisa Snowdown apo si e ka emrin ajo essex girlie
    Discover me like emptiness.......

  7. #7
    Dj Visi Maska e shqiptari02
    Anėtarėsuar
    24-04-2002
    Vendndodhja
    Michigan
    Mosha
    30
    Postime
    192
    Faleminderit
    0
    0 falenderime nė 0 postime

    ??

    Cjane keto numra o si mar vesh ------------------------------------------|
    ------------------------------------------|
    ---12--11--12--14--12--11--12-----|
    ---------------------------------------14|
    ------------------------------------------|
    ------------------------------------------|


    ------------------------------------------|-------------------|
    ------------------------------------------|-------------------|
    ---12--11--12--14--12--11--12-----|-----12--14-----|
    ---------------------------------------14|-------------------|
    ------------------------------------------|-------------------|
    ------------------------------------------|-------------------|

    ------------------------------------------|----------------------|
    ------------------------------------------|-------------15--17-|
    ---12--11--12--14--12--11--12-----|-12----14-----------|
    ---------------------------------------14|-----------------------|
    ------------------------------------------|-----------------------|
    ------------------------------------------|-----------------------|

    ma shpjegon pak?
    Opinion is like ass.. Everybody has one!

  8. #8
    In Flames Maska e dimegeni
    Anėtarėsuar
    23-04-2002
    Vendndodhja
    Göteborg
    Postime
    371
    Faleminderit
    0
    0 falenderime nė 0 postime

    ta thom u

    une nuk e di i bie ti kitares apo jo,po keto "numrat" simbolizojne notat,ky thjeshtesim eshte bere per tu dhene mundesi dhe atyre qe nuk lodhen ti mesojne ato por te kene mundesi te mesojne pjeset dhe te argetohen.Ma ha mendja per qellim fitimi eshte zbuluar dhe kjo.
    Vizat drejt jane 6 telat e kitares,keshtu kur ti shef nje numer p.sh. 2 ne telin e 4 (fillon nga lart-poshte) do te thote se gishtin duhet ta vendosesh tek teli i 4 po tek ndarja e 2-te ,sic e di (neck) kitarja ndahet me 21 ose 24 pjese(fretts),dhe keshtu me radhe per cdo numer qe ti shef aty,po ketu nuk po dalin drejt fare aty ku kam bere ndarjen me viza ato duhet te jene paralel dhe jo si kane levizur po kush e njef kete lloj te shkruajturi se ka problem se eshte shume i thjeshte.

    p.s. pse i kopjove numrat apo per te me prishur faqen, se dije ti qe ato jane prone e autorit dhe nuk lejohet kopjimi apo transferimi me ndonje vend tjeter.S'ke faj duhet ta kisha thene me perpara.
    Discover me like emptiness.......

  9. #9
    In Flames Maska e dimegeni
    Anėtarėsuar
    23-04-2002
    Vendndodhja
    Göteborg
    Postime
    371
    Faleminderit
    0
    0 falenderime nė 0 postime

    surprise

    ..
    Ndryshuar pėr herė tė fundit nga dimegeni : 30-09-2002 mė 07:41
    Discover me like emptiness.......

  10. #10
    In Flames Maska e dimegeni
    Anėtarėsuar
    23-04-2002
    Vendndodhja
    Göteborg
    Postime
    371
    Faleminderit
    0
    0 falenderime nė 0 postime

    Nuk te them te dua

    se dolem pak nga tema po si nuk ka ndonje njeri qe te diskutoj per keto pjese me jau.

    Nuk te them te dua

    --------------------------------------|---------------------------------------------
    --------------------------------------|---------------------------------------------
    --------------------------------------|---------------------------------------------
    --------------------------------------|---------------------------------------------
    -------------7--x-5--x-5-h-slide7|-----------7--x-5--x-5h-slide4----------
    -0---5-6-7-------------------------|-0--5-6-7----------------------------------

    -------------------------------------|----------------------------------------------
    -------------------------------------|----------------------------------------------
    -------------------------------------|----------------------------------------------
    -------------------------------------|--12---121110------------------------------------5-
    -------------7--x-5--x-5hslide7--|-----------------141312-121110-987-765------7
    --0--5-6-7-------------------------|---------------------------------------------

    refreni ajo solo qe e shoqeron
    ------------------------------------|-----------------------------------------------
    ---------14full--14r-pull12-----|---14--14full--14rpull12-----------------
    --------------------------------13-|----------------------------13---------------
    ------------------------------------|-----------------------------------------------
    ------------------------------------|-----------------------------------------------
    ------------------------------------|-----------------------------------------------
    Discover me like emptiness.......

  11. #11
    In Flames Maska e dimegeni
    Anėtarėsuar
    23-04-2002
    Vendndodhja
    Göteborg
    Postime
    371
    Faleminderit
    0
    0 falenderime nė 0 postime

    Sajzezo

    Kjo eshte nje kenge e bukur dhe mund te them qe kitarja luan rolin me te bukur ketu,kete kenge e pashe si e luante kitaristi dhe live prandaj me ndihmoi per ti gjetur notat me kollaj,them se eshte mire.Solon ndonje dite tjeter se po me humb dhe durimi te merrem pak, po normal ketu s'ka njeri te diskutoje dhe kjo tregon sa te "varfer" jemi ne nga muzika,nuk kemi qejf te mesojme vegla muzikore dhe nuk eshte cudi qe ato grupe qe kemi ne "suck" se nje pakice merret me muzike.


    pjesa para fjaleve
    --hold it--------------
    -------------------------------------|--------------------14--------------------
    -----12----(12-)---(12)----(12)-|----15---14--15---------15--14---12hold it
    -------------------------------------|--------------------------------------------
    -------------------------------------|--------------------------------------------
    -------------------------------------|--------------------------------------------
    -------------------------------------|--------------------------------------------
    sajzezo o moj ..........
    --------------------|-------------------------------------------------------------
    --------------------|-------------------------------------------------------------
    --------------------|-------------------------------------------------------------
    --------------------|-------------------------------------------------------------
    -------------2-----|----------2--2-------------3--3------------2----------------
    ------0--0-----0--|---0--0------------0--0------------0--0------0-----------

    kjo pjesa poshte duhet te perdoresh A.H.
    ---------------------------------------------------------------------------------
    ---------------------------------------------------------------------------------
    ---------------------------------------------------------------------------------
    ----------------------7-----------------------------------------------------------
    -----------7h5-----------5-------3-3-3----------------7---------------------
    -----0-0---------0--------------------------555-----7-------------------------

    me poshte eshte riff ku kitarja del vetem,perserite disa here
    --------------------------------------------------------------|-------------------
    --------------------------------------------------------------|-------------------
    --------------------------------------------------------------|-------------------
    ----9-----9-----9--9----7----7----7--7----5---5---5--5-|-5---5-------------
    ----9-----9-----9--9----7----7----7--7----5---5---5--5-|-5---5-----5h7p5
    -------0-----0--------------0----0-------------0---0-----------0----0-------



    kjo eshte ,kenaquni kush di
    Discover me like emptiness.......

  12. #12
    Dj Visi Maska e shqiptari02
    Anėtarėsuar
    24-04-2002
    Vendndodhja
    Michigan
    Mosha
    30
    Postime
    192
    Faleminderit
    0
    0 falenderime nė 0 postime

    Hey

    Une i bie Kitares bre lal po kjo menyre qe ju i shkruani mua me duket pak e ngateruar nuk e di kur kam qene ne klase te peste kam perdorur nje metode te Edison Misos ishe metode akordesh ne fakt dhe ishin te ngjashme me keto qe ke shkruar ti po une me te vertete nuk arij ti kuptoj keto


    Kjo me poshte eshte nje nga menyrat e metodes qe kam perdorur po mar akordin me te thjeshte psh: Do+
    Fotografitė e Bashkėngjitura Fotografitė e Bashkėngjitura  
    Opinion is like ass.. Everybody has one!

  13. #13
    In Flames Maska e dimegeni
    Anėtarėsuar
    23-04-2002
    Vendndodhja
    Göteborg
    Postime
    371
    Faleminderit
    0
    0 falenderime nė 0 postime

    ore bre lalke

    s'jam nga kodra pas bregut dhe mos me shkruaj akorde kalamajsh qe i kemi mesuar ne shkollen 8-vjecare.Ti i bie kitares?nuk ka mundesi ne bote,ta shpjegova dhe njehere kjo eshte bere per thjeshtesi per ti kuptuar, se t'i kthesh ato numrat ne nota ti s'ke per ti kuptuar per 1000 vjet bre lalke,shko te "google" dhe kerko per site "guitar-tab" dhe do ta kuptosh shume mire pse eshte kjo.Nuk mund te shkruash nje pentagram ne kompjuter se eshte veshtire(kush nuk di te perdori kompjuterin)dhe humbje kohe .Kitarja nuk eshte vetem akorde po ka:
    A.H.-artificial harmonic
    N.H.-natural harmonic
    taping-kete ti s'ke per ta kuptuar kurre dhe shume e shume stile te tjera.
    te cilat Edison Misja si ka perdorur kurre kur i binte vete ne ate kohe,dhe kete ta them me siguri. Elita5 do kitare elektrike dhe jo cifteli.

    p.s.Mos mu fut me te kjo teme te lutem,dhe "bre lalke" folu atyre katunareve te ty
    Discover me like emptiness.......

  14. #14
    i/e regjistruar Maska e isli
    Anėtarėsuar
    28-03-2002
    Vendndodhja
    Kanada
    Mosha
    47
    Postime
    16
    Faleminderit
    0
    0 falenderime nė 0 postime

    Cool Akorde per kitare

    Kam pak kohe qe kam filluar ti bie kitares dhe do ju lutesha kitaristeve shqiptare qe te postojne ca akorde kitareje te disa kengeve shqiptare.
    Ai qe di le ti postoje ketu.
    Thnx.
    The greatest thrill is to let live not kill

  15. #15
    i/e regjistruar
    Anėtarėsuar
    24-04-2002
    Vendndodhja
    Tirane
    Mosha
    40
    Postime
    189
    Faleminderit
    0
    0 falenderime nė 0 postime

    ???

    O Isli,
    Une per vete s'i bie kitares po kam pershtypjen se ato qe ka shkruar dimegeni tek tema ngjitur me tenden, jane akorde te kengeve shqiptare.

  16. #16
    In Flames Maska e dimegeni
    Anėtarėsuar
    23-04-2002
    Vendndodhja
    Göteborg
    Postime
    371
    Faleminderit
    0
    0 falenderime nė 0 postime

    ???

    krispi,mire bere qe je rekomandove po me duket se edhe Isli nuk i kupton.
    Isli,une te rekomandoj (mbase e di)te mesosh guitar-tab,dhe kete mund ta besh duke kerkuar per "tablature explanation" tek "google" ose diku tjeter.Une kenge shqiptare nuk kam po edhe po te kisha nuk do lodhesha se akordet e atyre jane te merzitshme dhe nuk te ndihmojne n.q.se ti di te kendosh atehere eshte pune tjeter.Ti tani merru me akorde si p.sh. "knockin on heaven door-Bob Dillan" kjo eshte e para qe te gjithe mesojne kur jane te rinj dhe shume e shume kenge te tjera te huaja se ashtu do perparosh dhe te kenaqesh per vete.Po mesove ate siper qe te them ka per te te ndihmuar shume se ne "net" i ke te gjitha kenget e shpjeguara dhe s'ke nevoje te blesh libra ose te paguash ndonje profesional,i ke te gjitha aty me tekniken,llojet e muzikes jane te gjitha si ti pelqesh,dhe po je fillestar ke mesime falas po duhet te dish te njohesh "guitar-tablature".

    Nje adrese e mire per te gjetur kenge te te gjitha llojeve eshte:

    www.tabrobot.com
    Discover me like emptiness.......

  17. #17
    Dj Visi Maska e shqiptari02
    Anėtarėsuar
    24-04-2002
    Vendndodhja
    Michigan
    Mosha
    30
    Postime
    192
    Faleminderit
    0
    0 falenderime nė 0 postime

    what the heck?

    Mos te dukem gje si katundar o? Avash o Avash qiellin paskeni aritur juve pupu cbeni juve se ben njeri ne kte bot. Muzikantet e vertete nuk kane pordhe si ju, jane njerezit me te thjeshte po mendove qe je muzikant te garantoj une 100 % none. Sa me i madh te te duket vetja aq me i vogel je.
    Opinion is like ass.. Everybody has one!

  18. #18
    i/e regjistruar Maska e isli
    Anėtarėsuar
    28-03-2002
    Vendndodhja
    Kanada
    Mosha
    47
    Postime
    16
    Faleminderit
    0
    0 falenderime nė 0 postime

    Kitare

    Spo i kuptoje dhe shume keto tabet, pak si te ngataruara. Arsya pse dua te mesoj kitaren eshte qe kur te dal me shoqerine te kendojme ca kenge jo vetem te digjojme muziken.
    Neqoftese dini akorde te nje kenge ju lutem postojeni ketu.
    The greatest thrill is to let live not kill

  19. #19
    be yourself by yourself Maska e denku
    Anėtarėsuar
    23-04-2002
    Vendndodhja
    in the casket garden
    Postime
    362
    Faleminderit
    0
    0 falenderime nė 0 postime

    ISLI

    do ti them dime-s te te dergoje ca te Avni Dibronit ,jane te bukura sidomos kur je ne ambient ( me femra e kom llafin) do kesh sukses
    Nuk mund te qortohem,sepse dhe vete njeriu model ka skadencen e tij....!!!!!!!!

  20. #20
    i/e regjistruar Maska e isli
    Anėtarėsuar
    28-03-2002
    Vendndodhja
    Kanada
    Mosha
    47
    Postime
    16
    Faleminderit
    0
    0 falenderime nė 0 postime

    Talking

    He pra daje ku mi ka aman...mezi po i pres...
    The greatest thrill is to let live not kill

Faqja 1 prej 11 123 ... FunditFundit

Tema tė Ngjashme

  1. Theofan Stilian Noli: Jeta dhe veprat e tij
    By ILovePejaa in forum Elita kombėtare
    Pėrgjigje: 74
    Postimi i Fundit: 11-11-2013, 07:27
  2. Pėrgjigje: 2
    Postimi i Fundit: 04-09-2006, 00:15
  3. Letėrsia Shqiptare
    By [A-SHKODRANI] in forum Enciklopedia letrare
    Pėrgjigje: 0
    Postimi i Fundit: 24-10-2005, 14:02
  4. Cili ėshtė synimi i AKSH-sė?
    By Faik in forum Ēėshtja kombėtare
    Pėrgjigje: 65
    Postimi i Fundit: 04-12-2003, 03:22
  5. Permbysja e rregjimit ne 97, Revolucion komunist?
    By Seminarist in forum Problematika shqiptare
    Pėrgjigje: 66
    Postimi i Fundit: 28-05-2003, 23:29

Ruaj Lidhjet

Regullat e Postimit

  • Ju nuk mund tė hapni tema tė reja.
  • Ju nuk mund tė postoni nė tema.
  • Ju nuk mund tė bashkėngjitni skedarė.
  • Ju nuk mund tė ndryshoni postimet tuaja.
  •